0
SECTION
2
HEADER
9
$INSUNITS
70
4
9
$ACADVER
1
AC1014
9
$HANDSEED
5
FFFF
0
ENDSEC
0
SECTION
2
TABLES
0
TABLE
2
VPORT
5
8
100
AcDbSymbolTable
0
ENDTAB
0
TABLE
2
LTYPE
5
5
100
AcDbSymbolTable
0
LTYPE
5
14
100
AcDbSymbolTableRecord
100
AcDbLinetypeTableRecord
2
BYBLOCK
70
0
0
LTYPE
5
15
100
AcDbSymbolTableRecord
100
AcDbLinetypeTableRecord
2
BYLAYER
70
0
0
ENDTAB
0
TABLE
2
LAYER
5
2
100
AcDbSymbolTable
70
2
0
LAYER
5
50
100
AcDbSymbolTableRecord
100
AcDbLayerTableRecord
2
0
70
0
6
CONTINUOUS
0
ENDTAB
0
TABLE
2
STYLE
5
3
100
AcDbSymbolTable
70
1
0
STYLE
5
11
100
AcDbSymbolTableRecord
100
AcDbTextStyleTableRecord
2
STANDARD
70
0
0
ENDTAB
0
TABLE
2
VIEW
5
6
100
AcDbSymbolTable
70
0
0
ENDTAB
0
TABLE
2
UCS
5
7
100
AcDbSymbolTable
70
0
0
ENDTAB
0
TABLE
2
APPID
5
9
100
AcDbSymbolTable
70
2
0
APPID
5
12
100
AcDbSymbolTableRecord
100
AcDbRegAppTableRecord
2
ACAD
70
0
0
ENDTAB
0
TABLE
2
DIMSTYLE
5
A
100
AcDbSymbolTable
70
1
0
ENDTAB
0
TABLE
2
BLOCK_RECORD
5
1
100
AcDbSymbolTable
70
1
0
BLOCK_RECORD
5
1F
100
AcDbSymbolTableRecord
100
AcDbBlockTableRecord
2
*MODEL_SPACE
0
BLOCK_RECORD
5
1B
100
AcDbSymbolTableRecord
100
AcDbBlockTableRecord
2
*PAPER_SPACE
0
ENDTAB
0
ENDSEC
0
SECTION
2
BLOCKS
0
BLOCK
5
20
100
AcDbEntity
100
AcDbBlockBegin
2
*MODEL_SPACE
0
ENDBLK
5
21
100
AcDbEntity
100
AcDbBlockEnd
0
BLOCK
5
1C
100
AcDbEntity
100
AcDbBlockBegin
2
*PAPER_SPACE
0
ENDBLK
5
1D
100
AcDbEntity
100
AcDbBlockEnd
0
ENDSEC
0
SECTION
2
ENTITIES
0
CIRCLE
5
100
100
AcDbEntity
8
0
100
AcDbCircle
10
-71.804383613752833
20
19.962890723296418
30
6.2796053157301577
40
1.4999999999999749
210
4.0419056990258989e-16
220
1.8384540456170189e-16
230
1
0
LWPOLYLINE
5
101
100
AcDbEntity
8
0
100
AcDbPolyline
90
4
70
1
43
0.0
10
-61.804383613751668
20
259.4628907232958
10
-21.804383613751952
20
259.46289072329438
10
-21.804383613751742
20
265.81289072329434
10
-61.804383613751462
20
265.81289072329577
0
CIRCLE
5
102
100
AcDbEntity
8
0
100
AcDbCircle
10
-41.804383613751632
20
253.31289041355956
30
6.2796053157301026
40
1.9999999999999785
210
4.0419056990258989e-16
220
1.8384540456170189e-16
230
1
0
CIRCLE
5
103
100
AcDbEntity
8
0
100
AcDbCircle
10
-40.904383613750497
20
102.31289044406108
30
6.2796053157301293
40
1.4999999999999749
210
4.0419056990258989e-16
220
1.8384540456170189e-16
230
1
0
CIRCLE
5
104
100
AcDbEntity
8
0
100
AcDbCircle
10
-71.804383613752066
20
44.962890723296383
30
6.2796053157301532
40
1.4999999999999749
210
4.0419056990258989e-16
220
1.8384540456170189e-16
230
1
0
CIRCLE
5
105
100
AcDbEntity
8
0
100
AcDbCircle
10
-11.244795613752636
20
44.962890723294251
30
6.2796053157301293
40
1.4999999999999749
210
4.0419056990258989e-16
220
1.8384540456170189e-16
230
1
0
CIRCLE
5
106
100
AcDbEntity
8
0
100
AcDbCircle
10
-49.204383613752434
20
244.31289041355981
30
6.2796053157301071
40
2.0999999999999934
210
4.0419056990258989e-16
220
1.8384540456170189e-16
230
1
0
CIRCLE
5
107
100
AcDbEntity
8
0
100
AcDbCircle
10
46.979616386247258
20
53.126890723292171
30
6.2796053157301026
40
1.5000000000000104
210
4.0419056990258989e-16
220
1.8384540456170189e-16
230
1
0
CIRCLE
5
108
100
AcDbEntity
8
0
100
AcDbCircle
10
-16.804383613751632
20
74.137889864647235
30
6.2796053157301257
40
1.9999999999999785
210
4.0419056990258989e-16
220
1.8384540456170189e-16
230
1
0
CIRCLE
5
109
100
AcDbEntity
8
0
100
AcDbCircle
10
-66.80438361375127
20
74.137890723296138
30
6.2796053157301461
40
2.0000000000000142
210
4.0419056990258989e-16
220
1.8384540456170189e-16
230
1
0
CIRCLE
5
110
100
AcDbEntity
8
0
100
AcDbCircle
10
-66.804383613751497
20
262.63789072329592
30
6.2796053157301115
40
2.0000000000000142
210
4.0419056990258989e-16
220
1.8384540456170189e-16
230
1
0
CIRCLE
5
111
100
AcDbEntity
8
0
100
AcDbCircle
10
46.979616386245979
20
14.772890723292207
30
6.2796053157301106
40
1.5000000000000104
210
4.0419056990258989e-16
220
1.8384540456170189e-16
230
1
0
CIRCLE
5
112
100
AcDbEntity
8
0
100
AcDbCircle
10
7.6096163862474597
20
51.602890723293555
30
6.2796053157301204
40
1.5000000000000104
210
4.0419056990258989e-16
220
1.8384540456170189e-16
230
1
0
CIRCLE
5
113
100
AcDbEntity
8
0
100
AcDbCircle
10
-49.204383613750444
20
102.3128904440614
30
6.2796053157301319
40
2.0999999999999934
210
4.0419056990258989e-16
220
1.8384540456170189e-16
230
1
0
CIRCLE
5
114
100
AcDbEntity
8
0
100
AcDbCircle
10
-16.804383613752023
20
62.137889864647278
30
6.2796053157301284
40
2.7499999999999658
210
4.0419056990258989e-16
220
1.8384540456170189e-16
230
1
0
CIRCLE
5
115
100
AcDbEntity
8
0
100
AcDbCircle
10
-11.244795613753453
20
19.962890723294286
30
6.2796053157301337
40
1.4999999999999749
210
4.0419056990258989e-16
220
1.8384540456170189e-16
230
1
0
CIRCLE
5
116
100
AcDbEntity
8
0
100
AcDbCircle
10
-41.804383613751597
20
93.312890444061168
30
6.2796053157301319
40
1.9999999999999785
210
4.0419056990258989e-16
220
1.8384540456170189e-16
230
1
0
CIRCLE
5
117
100
AcDbEntity
8
0
100
AcDbCircle
10
-16.804383613751881
20
262.63789072329422
30
6.2796053157300911
40
1.9999999999999785
210
4.0419056990258989e-16
220
1.8384540456170189e-16
230
1
0
CIRCLE
5
118
100
AcDbEntity
8
0
100
AcDbCircle
10
14.721616386246232
20
14.772890723293344
30
6.279605315730123
40
1.5000000000000104
210
4.0419056990258989e-16
220
1.8384540456170189e-16
230
1
0
LWPOLYLINE
5
119
100
AcDbEntity
8
0
100
AcDbPolyline
90
4
70
1
43
0.0
10
-61.804383477441014
20
77.312890714535698
10
-61.804383613751419
20
70.96289072329597
10
-21.8043836137517
20
70.962889864647437
10
-21.804383477441295
20
77.312889855887164
0
CIRCLE
5
120
100
AcDbEntity
8
0
100
AcDbCircle
10
-40.904383613752486
20
244.31289041355953
30
6.2796053157301035
40
1.4999934339541701
210
4.0419056990258989e-16
220
1.8384540456170189e-16
230
1
0
LWPOLYLINE
5
121
100
AcDbEntity
8
0
100
AcDbPolyline
90
11
70
1
43
0.0
10
48.535616386245962
20
10.962890723292219
10
-76.804383613753259
20
10.96289072329661
10
-76.804383613744818
20
268.63789072329627
42
-0.4142135623730937
10
-72.804383613744704
20
272.6378907232961
10
-10.804383613745198
20
272.63789072329394
42
-0.41421356237309587
10
-6.8043836137453884
20
268.63789072329388
10
-6.8043836137521367
20
61.698890723294113
42
0.41421356237310403
10
-2.8043836137523037
20
57.698890723294028
10
48.535616386247391
20
57.69889072329218
42
-0.41421356237309892
10
50.535616386247291
20
55.698890723292124
10
50.53561638624592
20
12.962890723292022
42
-0.41421356237309792
0
CIRCLE
5
122
100
AcDbEntity
8
0
100
AcDbCircle
10
16.856436163028164
20
102.19131703588388
30
-0.10448573419654439
40
1.9999999999999614
210
5.4522430776801808e-15
220
-1.2400308227814348e-15
230
1
0
CIRCLE
5
123
100
AcDbEntity
8
0
100
AcDbCircle
10
64.356436163082805
20
115.69131703562498
30
-0.10448573419678642
40
2.0999999999999668
210
5.4522430776801808e-15
220
-1.2400308227814348e-15
230
1
0
CIRCLE
5
124
100
AcDbEntity
8
0
100
AcDbCircle
10
16.856436162859598
20
71.191317035884381
30
-0.10448573419658325
40
1.9999999999999614
210
5.4522430776801808e-15
220
-1.2400308227814348e-15
230
1
0
CIRCLE
5
125
100
AcDbEntity
8
0
100
AcDbCircle
10
32.356436162925931
20
86.691317035799713
30
-0.10448573419664764
40
11.249999999999822
210
5.4522430776801808e-15
220
-1.2400308227814348e-15
230
1
0
CIRCLE
5
126
100
AcDbEntity
8
0
100
AcDbCircle
10
47.85643616285887
20
71.191317035715599
30
-0.104485734196752
40
1.9999999999999614
210
5.4522430776801808e-15
220
-1.2400308227814348e-15
230
1
0
CIRCLE
5
127
100
AcDbEntity
8
0
100
AcDbCircle
10
47.856436163027425
20
102.19131703571509
30
-0.10448573419671314
40
1.9999999999999614
210
5.4522430776801808e-15
220
-1.2400308227814348e-15
230
1
0
CIRCLE
5
128
100
AcDbEntity
8
0
100
AcDbCircle
10
0.35643616316050952
20
129.69131703597321
30
-0.10448573419642004
40
2.0999999999999668
210
5.4522430776801808e-15
220
-1.2400308227814348e-15
230
1
0
LWPOLYLINE
5
129
100
AcDbEntity
8
0
100
AcDbPolyline
90
3
70
1
43
0.0
10
69.356435840067519
20
115.69311429788243
10
69.356435842731585
20
115.80853703529179
10
69.350943610593788
20
115.92561461725177
42
-0.011629831772139164
0
CIRCLE
5
130
100
AcDbEntity
8
0
100
AcDbCircle
10
64.356436163158946
20
129.69131703562479
30
-0.10448573419676865
40
2.0999999999999668
210
5.4522430776801808e-15
220
-1.2400308227814348e-15
230
1
0
CIRCLE
5
131
100
AcDbEntity
8
0
100
AcDbCircle
10
0.35643616308436599
20
115.69131703597343
30
-0.10448573419643781
40
2.0999999999999668
210
5.4522430776801808e-15
220
-1.2400308227814348e-15
230
1
0
LWPOLYLINE
5
132
100
AcDbEntity
8
0
100
AcDbPolyline
90
53
70
1
43
0.0
10
69.559019150469709
20
89.173141035597212
10
68.065304232269185
20
89.17314103560534
42
4.8085069970032075
10
68.065304232242255
20
84.209493035605348
10
69.558998320437397
20
84.209493035597262
42
-0.55316768047880582
10
70.459318590120319
20
82.774265035592322
42
-0.009916780502278932
10
70.297612633490175
20
82.456022917946115
42
0.12310562561764977
10
67.356436162838037
20
70.691317035609302
10
67.356436162810922
20
65.691317035597535
10
59.356436162816195
20
65.691317035641134
10
59.356436162841476
20
70.691317035641049
10
60.856436162841455
20
70.69131703563346
10
60.85643616285742
20
73.691317035637582
10
59.356436162854564
20
73.69131703564517
10
59.356436162869308
20
76.691317035645142
10
55.3564361628694
20
76.691317035664895
10
55.356436162856816
20
73.691317035666884
10
53.856436162856845
20
73.691317035674501
10
53.856436162841597
20
70.69131703567038
10
55.356436162841504
20
70.691317035662763
10
55.356436162816323
20
65.691317035662891
10
52.356436162816415
20
65.691317035679276
10
52.356436162779836
20
59.341317035679275
10
12.356436162780797
20
59.34131703589707
10
12.356436162812315
20
65.691317035896958
10
9.3564361628123862
20
65.6913170359134
10
9.3564361628396178
20
70.691317035913315
10
10.856436162841703
20
70.691317035905115
10
10.856436162859762
20
73.691317035903779
10
9.3564361628600672
20
73.691317035911894
10
9.3564361628763582
20
76.691317035914679
10
5.3564361628764576
20
76.691317035936478
10
5.3564361628600583
20
73.691317035933679
10
3.856436162860585
20
73.691317035943285
10
3.8564361628436887
20
70.691317035943342
10
5.3564361628436554
20
70.691317035935157
10
5.3564361628125265
20
65.691317035935242
10
-2.6435638371873962
20
65.691317035978869
10
-2.6435638370543204
20
90.173141035990128
10
-4.6280395610679355
20
115.29761441291406
42
-0.019708260912567228
10
-4.6435638369210785
20
115.69132063982779
10
-4.6435638368394159
20
129.69131703600041
42
-0.41367061756557155
10
0.34716574198470462
20
134.69130844189488
10
2.3564393063755151
20
134.69131703595053
10
12.606436162944128
20
134.69131703589471
42
-0.41421356237309742
10
17.606436163160829
20
129.69131703562357
10
17.606436163122051
20
122.69131703587944
42
0.99999999999999989
10
47.106436163121316
20
122.69131703571878
10
47.10643616315933
20
129.69131703571458
42
-0.41421356237309342
10
52.10643616317882
20
134.69131703567965
10
62.356436163308075
20
134.69131703562385
10
65.559024601955386
20
134.69131354399195
42
-0.41421324304700047
10
70.559019150690006
20
129.69131354396782
10
70.55901915047491
20
90.173141035591584
42
-0.41421356237307422
0
CIRCLE
5
133
100
AcDbEntity
8
0
100
AcDbCircle
10
61.296176082979379
20
54.665886103131157
30
6.3499999999992793
40
1.6499999999999631
210
7.2973167299899024e-15
220
3.3302799195295176e-15
230
1
0
CIRCLE
5
134
100
AcDbEntity
8
0
100
AcDbCircle
10
61.296176082982271
20
16.66588610313179
30
6.3499999999994063
40
1.6499999999999719
210
7.2973167299899024e-15
220
3.3302799195295176e-15
230
1
0
LWPOLYLINE
5
135
100
AcDbEntity
8
0
100
AcDbPolyline
90
6
70
1
43
0.0
10
51.296176082981745
20
21.66588610313099
10
51.296176082979684
20
49.665886103130504
42
-0.84783338900315397
10
70.760955483372385
20
52.893571171706668
10
75.101415965154956
20
40.023194831175772
42
-0.15406758962259656
10
75.101415965155596
20
31.308577375089193
10
70.760955483375042
20
18.438201034557643
42
-0.8478333890031543
0
CIRCLE
5
136
100
AcDbEntity
8
0
100
AcDbCircle
10
25.598633997625075
20
123.88254268571116
30
6.3500000000003523
40
1.4499999999999715
210
1.8883095232192094e-15
220
-2.3452900453335812e-15
230
1
0
CIRCLE
5
137
100
AcDbEntity
8
0
100
AcDbCircle
10
39.598633997624617
20
123.88254268571188
30
6.3500000000003265
40
1.4499999999999715
210
1.8883095232192094e-15
220
-2.3452900453335812e-15
230
1
0
LWPOLYLINE
5
138
100
AcDbEntity
8
0
100
AcDbPolyline
90
4
70
1
43
0.0
10
35.250744932264467
20
126.3515223687632
42
-0.58212620356590361
10
29.946522982848393
20
126.35152250988389
42
1.7392220739119282
10
25.598633745166467
20
118.88254268571124
10
39.598633997624916
20
118.88254268571195
42
1.739222157377275
0
LWPOLYLINE
5
139
100
AcDbEntity
8
0
100
AcDbPolyline
90
44
70
1
43
0.0
10
-2.0664590100957585
20
151.64046765431993
42
-4.8197718851594509
10
-2.0664590118920989
20
146.6874676544395
10
-3.5604210464178268
20
146.68746765499691
42
0.41421356237019996
10
-4.5604210467119612
20
145.68746765545876
10
-4.5604210471039108
20
144.66396776352147
42
0.4142135623730942
10
3.4395789498320672
20
136.6639677604586
10
33.644613359238157
20
136.6639677488923
42
0.13794911790505662
10
40.160473318822724
20
138.49650003487432
10
63.857322237124983
20
152.97069680143548
42
0.26133394009592953
10
68.644713026713035
20
161.50467039054018
10
68.64471302671403
20
170.16440293506759
10
60.64471302671447
20
170.16440293506849
10
60.64471302671393
20
165.16440293506787
10
62.144713026712168
20
165.1644029350677
10
62.144713026711827
20
162.16440293508512
10
60.644718249671364
20
162.16440293508569
10
60.644718249670973
20
159.16440293508589
10
56.644713687109885
20
159.16440293508629
10
56.644713687110226
20
162.16440283974592
10
55.144713026713859
20
162.16440283974609
10
55.144713026714236
20
165.16439497175122
10
56.64471302671415
20
165.16439497175102
10
56.64471302671469
20
170.16439497175111
10
53.644713026714882
20
170.16439497175142
10
53.644713037953913
20
199.51439497174943
10
13.644713037956087
20
199.51439498706651
10
13.645047919165794
20
170.16476174424406
10
10.645047919165961
20
170.16476174539275
10
10.644968185188585
20
165.16476174602559
10
12.144968184996737
20
165.16473782583174
10
12.144920344735418
20
162.16474569420853
10
10.644919684528473
20
162.16476961441299
10
10.644871844143013
20
159.16476971013515
10
6.6448672820910488
20
159.16483349739161
10
6.6449151224780225
20
162.1648334970082
10
5.1449203456291155
20
162.16485741711926
10
5.144968186015956
20
165.16485741672034
10
6.6449681858243697
20
165.16483349652458
10
6.6450479198029511
20
170.16483349588992
10
-1.3551580021987264
20
170.1649418831596
10
-1.3552190873895642
20
165.65615607996148
42
-0.11953266987918111
10
-4.3552700013828485
20
153.28710620869833
42
0.0065835727754385955
10
-4.4610620815045445
20
153.07503015500731
42
0.55292640649832214
10
-3.5604204032820723
20
151.64046765484318
0
CIRCLE
5
140
100
AcDbEntity
8
0
100
AcDbCircle
10
33.644713026713475
20
149.16396764082069
30
6.2796053157296434
40
7.8999999999995607
210
-4.0235640259003825e-15
220
-5.2564838274934342e-16
230
1
0
CIRCLE
5
141
100
AcDbEntity
8
0
100
AcDbCircle
10
3.3267403569206877
20
179.96439981533601
30
6.3499999999998691
40
1.4499999999999249
210
-1.3345643155144018e-17
220
-6.3647882554665769e-16
230
1
0
CIRCLE
5
142
100
AcDbEntity
8
0
100
AcDbCircle
10
3.3267403569212206
20
193.96439981533561
30
6.349999999999878
40
1.4499999999999249
210
-1.3345643155144018e-17
220
-6.3647882554665769e-16
230
1
0
LWPOLYLINE
5
143
100
AcDbEntity
8
0
100
AcDbPolyline
90
4
70
1
43
0.0
10
0.85776067386960753
20
189.6165107499757
42
-0.58212620356590639
10
0.85776053274842257
20
184.31228880055957
42
1.739222073911936
10
8.3267403569204372
20
179.96439956287691
10
8.3267403569209684
20
193.96439981533544
42
1.7392221573772948
0
CIRCLE
5
144
100
AcDbEntity
8
0
100
AcDbCircle
10
54.530950287017852
20
216.34224176576896
30
6.3499999999991665
40
1.6499999999999371
210
2.1049529970108757e-15
220
1.0491412592004385e-15
230
1
0
CIRCLE
5
145
100
AcDbEntity
8
0
100
AcDbCircle
10
-1.4690497129803326
20
216.34224176576555
30
6.3499999999992838
40
1.6499999999999371
210
2.1049529970108757e-15
220
1.0491412592004385e-15
230
1
0
LWPOLYLINE
5
146
100
AcDbEntity
8
0
100
AcDbPolyline
90
18
70
1
43
0.0
10
44.471863048549437
20
233.05605766030686
42
-0.2441566887072083
10
48.560628935768818
20
230.93015088628579
10
57.394933552359177
20
218.35410653653383
42
-0.32533902662038633
10
57.326174843438324
20
214.23588954470674
42
-0.43244592818854327
10
-4.007368609517564
20
213.9324830269118
42
-0.3570607561020489
10
-4.3330329783219481
20
218.35410653653003
10
4.5012716382659113
20
230.93015088628309
42
-0.24415668870719726
10
8.59003752548489
20
233.05605766030484
10
10.780852078635618
20
233.05721387491963
42
-0.41424232723483057
10
11.780950287017749
20
232.05721387974222
10
11.780950287018982
20
219.1271555075636
42
0.20490555801045479
10
15.337076142217981
20
208.02910139756409
42
0.21629169446412463
10
17.590375828557161
20
206.99441288904424
10
34.828189134559906
20
206.91774623928887
42
0.21499070566861864
10
37.081183237501556
20
207.92011214010867
42
0.17849239172853593
10
41.280950287018044
20
218.57735634720999
10
41.280950287016765
20
232.05721387974398
42
-0.41424232723481297
10
42.281048495398679
20
233.05721387492156
0
CIRCLE
5
147
100
AcDbEntity
8
0
100
AcDbCircle
10
61.091335319564578
20
177.19774614970802
30
6.349999999999806
40
1.4499999999999913
210
-1.6917537997953981e-15
220
-8.797300523182563e-16
230
1
0
CIRCLE
5
148
100
AcDbEntity
8
0
100
AcDbCircle
10
61.091335319564877
20
191.1977461497078
30
6.3499999999998185
40
1.4499999999999913
210
-1.6917537997953981e-15
220
-8.797300523182563e-16
230
1
0
LWPOLYLINE
5
149
100
AcDbEntity
8
0
100
AcDbPolyline
90
4
70
1
43
0.0
10
58.622355636513241
20
186.84985708434778
42
-0.58212620356591294
10
58.622355495392135
20
181.54563513493162
42
1.739222073911936
10
66.09133531956455
20
177.19774589724906
10
66.091335319564863
20
191.19774614970777
42
1.7392221573772733
0
CIRCLE
5
150
100
AcDbEntity
8
0
100
AcDbCircle
10
57.790438590791737
20
204.579809824432
30
6.3499999999998726
40
1.4499999999999569
210
-8.5700254762126859e-16
220
2.3838467892993796e-15
230
1
0
CIRCLE
5
151
100
AcDbEntity
8
0
100
AcDbCircle
10
66.789465126401552
20
215.30443202809866
30
6.3499999999998549
40
1.4499999999999569
210
-8.5700254762126859e-16
220
2.3838467892993796e-15
230
1
0
LWPOLYLINE
5
152
100
AcDbEntity
8
0
100
AcDbPolyline
90
4
70
1
43
0.0
10
62.1033477405215
20
213.5607853191145
42
-0.58212620356591172
10
58.693859484305108
20
209.49751566040493
42
1.7392220739119226
10
61.620660644109492
20
201.36587158260514
10
70.61968734199678
20
212.09049397966658
42
1.7392221573772904
0
CIRCLE
5
153
100
AcDbEntity
8
0
100
AcDbCircle
10
21.109561548481075
20
255.30566076863337
30
6.2796053157299125
40
2.0999999999999641
210
-2.4394533080951471e-15
220
4.1087311532128354e-15
230
1
0
CIRCLE
5
154
100
AcDbEntity
8
0
100
AcDbCircle
10
35.276277503143731
20
259.16937463125174
30
6.2796053157299312
40
2.0999999999999641
210
-2.4394533080951471e-15
220
4.1087311532128354e-15
230
1
0
CIRCLE
5
155
100
AcDbEntity
8
0
100
AcDbCircle
10
1.6646881160055571
20
269.3732439724028
30
6.2796053157298068
40
2.0999999999999641
210
-2.4394533080951471e-15
220
4.1087311532128354e-15
230
1
0
CIRCLE
5
156
100
AcDbEntity
8
0
100
AcDbCircle
10
18.420916434128145
20
272.06188908675574
30
6.279605315729837
40
2.0999999999999641
210
-2.4394533080951471e-15
220
4.1087311532128354e-15
230
1
0
CIRCLE
5
157
100
AcDbEntity
8
0
100
AcDbCircle
10
11.387124832243316
20
262.33945237051807
30
6.2796053157298601
40
7.499999999999841
210
-2.4394533080951471e-15
220
4.1087311532128354e-15
230
1
0
CIRCLE
5
158
100
AcDbEntity
8
0
100
AcDbCircle
10
65.788603181349018
20
232.58245061577833
30
6.2796053157301142
40
2.0999999999999641
210
-2.4394533080951471e-15
220
4.1087311532128354e-15
230
1
0
CIRCLE
5
159
100
AcDbEntity
8
0
100
AcDbCircle
10
33.085255788705581
20
272.82430435816161
30
6.279605315729869
40
2.0999999999999641
210
-2.4394533080951471e-15
220
4.1087311532128354e-15
230
1
0
CIRCLE
5
160
100
AcDbEntity
8
0
100
AcDbCircle
10
28.268534723642951
20
226.56211317266198
30
6.2796053157300484
40
2.0999999999999641
210
-2.4394533080951471e-15
220
4.1087311532128354e-15
230
1
0
CIRCLE
5
161
100
AcDbEntity
8
0
100
AcDbCircle
10
46.74018551561565
20
275.01532607259975
30
6.2796053157298939
40
2.0999999999999641
210
-2.4394533080951471e-15
220
4.1087311532128354e-15
230
1
0
CIRCLE
5
162
100
AcDbEntity
8
0
100
AcDbCircle
10
41.008231509379698
20
267.09235035192575
30
6.2796053157299125
40
6.3499999999998815
210
-2.4394533080951471e-15
220
4.1087311532128354e-15
230
1
0
CIRCLE
5
163
100
AcDbEntity
8
0
100
AcDbCircle
10
48.931207230053801
20
261.36039634568988
30
6.2796053157299561
40
2.0999999999999641
210
-2.4394533080951471e-15
220
4.1087311532128354e-15
230
1
0
CIRCLE
5
164
100
AcDbEntity
8
0
100
AcDbCircle
10
4.3533332303584871
20
252.61701565428041
30
6.2796053157298823
40
2.0999999999999641
210
-2.4394533080951471e-15
220
4.1087311532128354e-15
230
1
0
LWPOLYLINE
5
165
100
AcDbEntity
8
0
100
AcDbPolyline
90
17
70
1
43
0.0
10
23.208973597803116
20
227.62211046837768
10
23.247709735545499
20
230.12462040595301
42
0.31531117167876194
10
13.596717861226031
20
244.37131624616615
10
5.6834325948708075
20
247.39060977781818
42
-0.7170223638172003
10
6.8294137011993872
20
277.67657300139081
10
35.583519742665281
20
286.32991124501535
42
-0.40209958714137095
10
55.310899713666402
20
276.25171168325227
10
70.248678276351569
20
235.21050238546735
42
-0.47101323233252029
10
62.436051395629207
20
221.91659872649842
10
60.4613109504864
20
221.59973886107116
42
-0.41421356237309226
10
55.878110329347237
20
224.91550002050161
10
53.501661338643409
20
239.72605335906965
42
0.4142135623730745
10
52.355861183358627
20
240.55499364892725
10
38.532678067361637
20
238.33697459093699
42
0.41421356237309337
10
37.703737777504031
20
237.19117443565224
10
40.080186768207724
20
222.38062109708454
42
-0.18525013571190654
10
39.490529958527937
20
219.57628344789759
42
-0.63999058093103511
0
CIRCLE
5
166
100
AcDbEntity
8
0
100
AcDbCircle
10
-10.505976081554476
20
286.69162307398631
30
6.3499999999996914
40
1.9999999999999485
210
2.4824960049509356e-15
220
8.4416059472763156e-16
230
1
0
CIRCLE
5
167
100
AcDbEntity
8
0
100
AcDbCircle
10
-70.505977128495346
20
279.69162307398966
30
6.349999999999846
40
2.0999999999999526
210
2.4824960049509356e-15
220
8.4416059472763156e-16
230
1
0
CIRCLE
5
168
100
AcDbEntity
8
0
100
AcDbCircle
10
-70.505976081552177
20
293.69162307398875
30
6.3499999999998336
40
2.0999999999999526
210
2.4824960049509356e-15
220
8.4416059472763156e-16
230
1
0
CIRCLE
5
169
100
AcDbEntity
8
0
100
AcDbCircle
10
-66.505976081552504
20
286.69162307398881
30
6.34999999999983
40
1.9999999999999396
210
2.4824960049509356e-15
220
8.4416059472763156e-16
230
1
0
CIRCLE
5
170
100
AcDbEntity
8
0
100
AcDbCircle
10
-6.5059760815543743
20
293.69162307398591
30
6.3499999999996746
40
2.0999999999999437
210
2.4824960049509356e-15
220
8.4416059472763156e-16
230
1
0
CIRCLE
5
171
100
AcDbEntity
8
0
100
AcDbCircle
10
-6.5059750346120371
20
279.69162307398682
30
6.349999999999687
40
2.0999999999999437
210
2.4824960049509356e-15
220
8.4416059472763156e-16
230
1
0
ARC
5
172
100
AcDbEntity
8
0
100
AcDbCircle
10
-6.5059760815543743
20
293.69162307398591
30
6.3499999999996746
40
4.99999999999996
210
2.4424906541753401e-15
220
8.4416059472763038e-16
230
1
100
AcDbArc
50
0
51
78.474039906316392
0
LINE
5
173
100
AcDbEntity
8
0
100
AcDbLine
10
-5.5069165458087195
20
298.59079443698579
30
6.3499999999996684
11
-34.815602241336585
21
304.56754433094306
31
6.3499999999997359
0
ARC
5
174
100
AcDbEntity
8
0
100
AcDbCircle
10
-38.505976081553477
20
286.69162307398756
30
6.3499999999997598
40
18.252874290517354
210
2.4844169139301484e-15
220
8.5346534788840572e-16
230
1
100
AcDbArc
50
78.335506741277499
51
101.66449325871905
0
LINE
5
175
100
AcDbEntity
8
0
100
AcDbLine
10
-42.196349921769311
20
304.56754433094335
30
6.3499999999997545
11
-71.505035617297438
21
298.59079443698835
31
6.3499999999998309
0
ARC
5
176
100
AcDbEntity
8
0
100
AcDbCircle
10
-70.505976081552177
20
293.69162307398875
30
6.3499999999998336
40
4.9999999999998703
210
2.459920458672149e-15
220
9.5486617920573655e-16
230
1
100
AcDbArc
50
101.52596009367984
51
180
0
LINE
5
177
100
AcDbEntity
8
0
100
AcDbLine
10
-75.505976081552134
20
293.69162307398932
30
6.349999999999846
11
-75.505977128494848
21
279.69162344789765
31
6.3499999999998575
0
ARC
5
178
100
AcDbEntity
8
0
100
AcDbCircle
10
-70.505977128495346
20
279.69162307398966
30
6.349999999999846
40
4.9999999999995257
210
2.4424907173032595e-15
220
8.4416059771929079e-16
230
1
100
AcDbArc
50
179.99999573113178
51
269.41965012068425
0
LINE
5
179
100
AcDbEntity
8
0
100
AcDbLine
10
-70.556621343532541
20
274.69187956422002
30
6.3499999999998504
11
-58.262035333757005
21
274.56734324421478
31
6.3499999999998202
0
ARC
5
180
100
AcDbEntity
8
0
100
AcDbCircle
10
-58.260224874242681
20
279.56734291643829
30
6.3499999999998149
40
4.9999999999998499
210
2.4825920185410897e-15
220
1.1093241708792106e-15
230
1
100
AcDbArc
50
269.97925366171665
51
359.9658580307285
0
LINE
5
181
100
AcDbEntity
8
0
100
AcDbLine
10
-53.260225761954359
20
279.56436346773
30
6.3499999999998025
11
-53.255973462804477
21
286.70041244767538
31
6.3499999999997971
0
ARC
5
182
100
AcDbEntity
8
0
100
AcDbCircle
10
-38.505976081553477
20
286.69162307398756
30
6.3499999999997598
40
14.75000000000005
210
2.4833955731487329e-15
220
8.2845630823713118e-16
230
1
100
AcDbArc
50
0.034141969260875919
51
179.96585803073913
0
LINE
5
183
100
AcDbEntity
8
0
100
AcDbLine
10
-23.755978700302464
20
286.70041244767401
30
6.3499999999997234
11
-23.751726401153043
21
279.56436346772875
31
6.3499999999997296
0
ARC
5
184
100
AcDbEntity
8
0
100
AcDbCircle
10
-18.7517272888647
20
279.56734291643647
30
6.3499999999997172
40
4.9999999999998836
210
2.4419880754767268e-15
220
8.4413645646371967e-16
230
1
100
AcDbArc
50
180.03414196926087
51
270.02074633827982
0
LINE
5
185
100
AcDbEntity
8
0
100
AcDbLine
10
-18.749916829350685
20
274.56734324421296
30
6.3499999999997216
11
-6.4553308195751224
21
274.69187956421717
31
6.3499999999996906
0
ARC
5
186
100
AcDbEntity
8
0
100
AcDbCircle
10
-6.5059750346120371
20
279.69162307398682
30
6.349999999999687
40
5.0000000000000249
210
2.4840440837826611e-15
220
6.9132977118960173e-16
230
1
100
AcDbArc
50
270.58034987931251
51
360
0
LINE
5
187
100
AcDbEntity
8
0
100
AcDbLine
10
-1.5059750346125345
20
279.69162344789436
30
6.3499999999996737
11
-1.5059760815544143
21
293.69162307398608
31
6.3499999999996621
0
CIRCLE
5
188
100
AcDbEntity
8
0
100
AcDbCircle
10
-30.77727525196563
20
290.846085076245
30
6.3499999999996781
40
1.4499999999999649
210
6.6991003689795132e-15
220
-7.6829593734467972e-16
230
1
0
CIRCLE
5
189
100
AcDbEntity
8
0
100
AcDbCircle
10
-44.777275251965527
20
290.84608507624364
30
6.3499999999997723
40
1.4499999999999649
210
6.6991003689795132e-15
220
-7.6829593734467972e-16
230
1
0
LWPOLYLINE
5
190
100
AcDbEntity
8
0
100
AcDbPolyline
90
4
70
1
43
0.0
10
-40.4293861866052
20
288.37710539319266
42
-0.58212620356590283
10
-35.125164237188997
20
288.37710525207211
42
1.7392220739119306
10
-30.777274999507163
20
295.84608507624489
10
-44.777275251965982
20
295.84608507624358
42
1.7392221573773117
0
CIRCLE
5
191
100
AcDbEntity
8
0
100
AcDbCircle
10
-45.508915004689207
20
279.77012386073557
30
6.3500000000000432
40
1.4499999999999802
210
2.109116330833382e-16
220
5.1867152978507842e-16
230
1
0
CIRCLE
5
192
100
AcDbEntity
8
0
100
AcDbCircle
10
-31.508915004689399
20
279.77012386073579
30
6.3500000000000405
40
1.4499999999999802
210
2.109116330833382e-16
220
5.1867152978507842e-16
230
1
0
LWPOLYLINE
5
193
100
AcDbEntity
8
0
100
AcDbPolyline
90
4
70
1
43
0.0
10
-35.856804070049549
20
282.23910354378728
42
-0.58212620356591382
10
-41.161026019465716
20
282.23910368490817
42
1.7392220739119322
10
-45.508915257147969
20
274.77012386073557
10
-31.508915004689236
20
274.77012386073585
42
1.7392221573772788
0
ENDSEC
0
SECTION
2
OBJECTS
0
DICTIONARY
5
C
100
AcDbDictionary
3
ACAD_GROUP
350
D
3
ACAD_MLINESTYLE
350
17
0
DICTIONARY
5
D
100
AcDbDictionary
0
DICTIONARY
5
1A
330
C
100
AcDbDictionary
0
DICTIONARY
5
17
100
AcDbDictionary
0
ENDSEC
0
EOF
